  0
SECTION
  2
HEADER
  9
$ACADVER
  1
AC1015
  9
$ACADMAINTVER
 70
     6
  9
$DWGCODEPAGE
  3
ANSI_1254
  9
$INSBASE
 10
0.0
 20
0.0
 30
0.0
  9
$EXTMIN
 10
0.0
 20
0.0
 30
0.0
  9
$EXTMAX
 10
279.4
 20
215.9
 30
0.0
  9
$LIMMIN
 10
0.0
 20
0.0
  9
$LIMMAX
 10
279.4
 20
215.9
  9
$ORTHOMODE
 70
     0
  9
$REGENMODE
 70
     1
  9
$FILLMODE
 70
     1
  9
$QTEXTMODE
 70
     0
  9
$MIRRTEXT
 70
     1
  9
$LTSCALE
 40
1.0
  9
$ATTMODE
 70
     1
  9
$TEXTSIZE
 40
3.5
  9
$TRACEWID
 40
1.0
  9
$TEXTSTYLE
  7
Standard
  9
$CLAYER
  8
0
  9
$CELTYPE
  6
ByLayer
  9
$CECOLOR
 62
   256
  9
$CELTSCALE
 40
1.0
  9
$DISPSILH
 70
     0
  9
$DIMSCALE
 40
1.0
  9
$DIMASZ
 40
3.5
  9
$DIMEXO
 40
1.0
  9
$DIMDLI
 40
3.75
  9
$DIMRND
 40
0.0
  9
$DIMDLE
 40
0.0
  9
$DIMEXE
 40
1.0
  9
$DIMTP
 40
0.0
  9
$DIMTM
 40
0.0
  9
$DIMTXT
 40
3.5
  9
$DIMCEN
 40
2.5
  9
$DIMTSZ
 40
0.0
  9
$DIMTOL
 70
     0
  9
$DIMLIM
 70
     0
  9
$DIMTIH
 70
     1
  9
$DIMTOH
 70
     1
  9
$DIMSE1
 70
     0
  9
$DIMSE2
 70
     0
  9
$DIMTAD
 70
     1
  9
$DIMZIN
 70
     0
  9
$DIMBLK
  1

  9
$DIMASO
 70
     1
  9
$DIMSHO
 70
     1
  9
$DIMPOST
  1

  9
$DIMAPOST
  1

  9
$DIMALT
 70
     0
  9
$DIMALTD
 70
     3
  9
$DIMALTF
 40
0.0393700787
  9
$DIMLFAC
 40
1.0
  9
$DIMTOFL
 70
     1
  9
$DIMTVP
 40
0.0
  9
$DIMTIX
 70
     0
  9
$DIMSOXD
 70
     0
  9
$DIMSAH
 70
     0
  9
$DIMBLK1
  1

  9
$DIMBLK2
  1

  9
$DIMSTYLE
  2
ISO-25
  9
$DIMCLRD
 70
     0
  9
$DIMCLRE
 70
     0
  9
$DIMCLRT
 70
     0
  9
$DIMTFAC
 40
1.0
  9
$DIMGAP
 40
1.524
  9
$DIMJUST
 70
     0
  9
$DIMSD1
 70
     0
  9
$DIMSD2
 70
     0
  9
$DIMTOLJ
 70
     0
  9
$DIMTZIN
 70
     0
  9
$DIMALTZ
 70
     0
  9
$DIMALTTZ
 70
     0
  9
$DIMUPT
 70
     0
  9
$DIMDEC
 70
     2
  9
$DIMTDEC
 70
     2
  9
$DIMALTU
 70
     2
  9
$DIMALTTD
 70
     3
  9
$DIMTXSTY
  7
Standard
  9
$DIMAUNIT
 70
     0
  9
$DIMADEC
 70
     2
  9
$DIMALTRND
 40
0.0
  9
$DIMAZIN
 70
     0
  9
$DIMDSEP
 70
    44
  9
$DIMATFIT
 70
     3
  9
$DIMFRAC
 70
     0
  9
$DIMLDRBLK
  1

  9
$DIMLUNIT
 70
     2
  9
$DIMLWD
 70
    -2
  9
$DIMLWE
 70
    -2
  9
$DIMTMOVE
 70
     0
  9
$LUNITS
 70
     2
  9
$LUPREC
 70
     2
  9
$SKETCHINC
 40
1.0
  9
$FILLETRAD
 40
10.0
  9
$AUNITS
 70
     0
  9
$AUPREC
 70
     2
  9
$MENU
  1
.
  9
$ELEVATION
 40
0.0
  9
$PELEVATION
 40
0.0
  9
$THICKNESS
 40
0.0
  9
$LIMCHECK
 70
     0
  9
$CHAMFERA
 40
0.0
  9
$CHAMFERB
 40
0.0
  9
$CHAMFERC
 40
0.0
  9
$CHAMFERD
 40
0.0
  9
$SKPOLY
 70
     0
  9
$TDCREATE
 40
2460704.460251261
  9
$TDUCREATE
 40
2460704.335251261
  9
$TDUPDATE
 40
2460704.460251331
  9
$TDUUPDATE
 40
2460704.335251331
  9
$TDINDWG
 40
0.0000000116
  9
$TDUSRTIMER
 40
0.0000000116
  9
$USRTIMER
 70
     1
  9
$ANGBASE
 50
0.0
  9
$ANGDIR
 70
     0
  9
$PDMODE
 70
     0
  9
$PDSIZE
 40
-1.0
  9
$PLINEWID
 40
0.0
  9
$SPLFRAME
 70
     0
  9
$SPLINETYPE
 70
     6
  9
$SPLINESEGS
 70
     8
  9
$HANDSEED
  5
B7
  9
$SURFTAB1
 70
     6
  9
$SURFTAB2
 70
     6
  9
$SURFTYPE
 70
     6
  9
$SURFU
 70
     6
  9
$SURFV
 70
     6
  9
$UCSBASE
  2

  9
$UCSNAME
  2

  9
$UCSORG
 10
0.0
 20
0.0
 30
0.0
  9
$UCSXDIR
 10
1.0
 20
0.0
 30
0.0
  9
$UCSYDIR
 10
0.0
 20
1.0
 30
0.0
  9
$UCSORTHOREF
  2

  9
$UCSORTHOVIEW
 70
     0
  9
$UCSORGTOP
 10
0.0
 20
0.0
 30
0.0
  9
$UCSORGBOTTOM
 10
0.0
 20
0.0
 30
0.0
  9
$UCSORGLEFT
 10
0.0
 20
0.0
 30
0.0
  9
$UCSORGRIGHT
 10
0.0
 20
0.0
 30
0.0
  9
$UCSORGFRONT
 10
0.0
 20
0.0
 30
0.0
  9
$UCSORGBACK
 10
0.0
 20
0.0
 30
0.0
  9
$PUCSBASE
  2

  9
$PUCSNAME
  2

  9
$PUCSORG
 10
0.0
 20
0.0
 30
0.0
  9
$PUCSXDIR
 10
1.0
 20
0.0
 30
0.0
  9
$PUCSYDIR
 10
0.0
 20
1.0
 30
0.0
  9
$PUCSORTHOREF
  2

  9
$PUCSORTHOVIEW
 70
     0
  9
$PUCSORGTOP
 10
0.0
 20
0.0
 30
0.0
  9
$PUCSORGBOTTOM
 10
0.0
 20
0.0
 30
0.0
  9
$PUCSORGLEFT
 10
0.0
 20
0.0
 30
0.0
  9
$PUCSORGRIGHT
 10
0.0
 20
0.0
 30
0.0
  9
$PUCSORGFRONT
 10
0.0
 20
0.0
 30
0.0
  9
$PUCSORGBACK
 10
0.0
 20
0.0
 30
0.0
  9
$USERI1
 70
     0
  9
$USERI2
 70
     0
  9
$USERI3
 70
     0
  9
$USERI4
 70
     0
  9
$USERI5
 70
     0
  9
$USERR1
 40
0.0
  9
$USERR2
 40
0.0
  9
$USERR3
 40
0.0
  9
$USERR4
 40
0.0
  9
$USERR5
 40
0.0
  9
$WORLDVIEW
 70
     1
  9
$SHADEDGE
 70
     3
  9
$SHADEDIF
 70
    70
  9
$TILEMODE
 70
     1
  9
$MAXACTVP
 70
    64
  9
$PINSBASE
 10
0.0
 20
0.0
 30
0.0
  9
$PLIMCHECK
 70
     0
  9
$PEXTMIN
 10
1.0000000000E+20
 20
1.0000000000E+20
 30
1.0000000000E+20
  9
$PEXTMAX
 10
-1.0000000000E+20
 20
-1.0000000000E+20
 30
-1.0000000000E+20
  9
$PLIMMIN
 10
0.0
 20
0.0
  9
$PLIMMAX
 10
420.0
 20
297.0
  9
$UNITMODE
 70
     0
  9
$VISRETAIN
 70
     1
  9
$PLINEGEN
 70
     0
  9
$PSLTSCALE
 70
     1
  9
$TREEDEPTH
 70
  3020
  9
$CMLSTYLE
  2
Standard
  9
$CMLJUST
 70
     0
  9
$CMLSCALE
 40
20.0
  9
$PROXYGRAPHICS
 70
     1
  9
$MEASUREMENT
 70
     1
  9
$CELWEIGHT
370
    -1
  9
$ENDCAPS
280
     0
  9
$JOINSTYLE
280
     0
  9
$LWDISPLAY
290
     1
  9
$INSUNITS
 70
     4
  9
$HYPERLINKBASE
  1

  9
$STYLESHEET
  1

  9
$XEDIT
290
     1
  9
$CEPSNTYPE
380
     0
  9
$PSTYLEMODE
290
     1
  9
$FINGERPRINTGUID
  2
{76d93712-ec04-4fbb-88a3-7968f8e5be0e}
  9
$VERSIONGUID
  2
{FAEB1C32-E019-11D5-929B-00C0DF256EC4}
  9
$EXTNAMES
290
     1
  9
$PSVPSCALE
 40
0.0
  9
$OLESTARTUP
290
     0
  0
ENDSEC
  0
SECTION
  2
CLASSES
  0
CLASS
  1
ACDBDICTIONARYWDFLT
  2
AcDbDictionaryWithDefault
  3
ObjectDBX Classes
 90
        0
280
     0
281
     0
  0
CLASS
  1
VISUALSTYLE
  2
AcDbVisualStyle
  3
ObjectDBX Classes
 90
     4095
280
     0
281
     0
  0
CLASS
  1
MATERIAL
  2
AcDbMaterial
  3
ObjectDBX Classes
 90
     1153
280
     0
281
     0
  0
CLASS
  1
SCALE
  2
AcDbScale
  3
ObjectDBX Classes
 90
     1153
280
     0
281
     0
  0
CLASS
  1
TABLESTYLE
  2
AcDbTableStyle
  3
ObjectDBX Classes
 90
     4095
280
     0
281
     0
  0
CLASS
  1
MLEADERSTYLE
  2
AcDbMLeaderStyle
  3
ACDB_MLEADERSTYLE_CLASS
 90
     4095
280
     0
281
     0
  0
CLASS
  1
SUN
  2
AcDbSun
  3
SCENEOE
 90
     1153
280
     0
281
     0
  0
CLASS
  1
ACDBPLACEHOLDER
  2
AcDbPlaceHolder
  3
ObjectDBX Classes
 90
        0
280
     0
281
     0
  0
CLASS
  1
LAYOUT
  2
AcDbLayout
  3
ObjectDBX Classes
 90
        0
280
     0
281
     0
  0
ENDSEC
  0
SECTION
  2
TABLES
  0
TABLE
  2
VPORT
  5
8
330
0
100
AcDbSymbolTable
 70
     1
  0
VPORT
  5
29
330
8
100
AcDbSymbolTableRecord
100
AcDbViewportTableRecord
  2
*Active
 70
     0
 10
0.0
 20
0.0
 11
1.0
 21
1.0
 12
139.7
 22
107.95
 13
0.0
 23
0.0
 14
10.0
 24
10.0
 15
10.0
 25
10.0
 16
0.0
 26
0.0
 36
1.0
 17
0.0
 27
0.0
 37
0.0
 40
215.9
 41
1.2941176471
 42
50.0
 43
0.0
 44
0.0
 50
0.0
 51
0.0
 71
     0
 72
  2000
 73
     1
 74
     3
 75
     0
 76
     0
 77
     0
 78
     0
281
     0
 65
     1
110
0.0
120
0.0
130
0.0
111
1.0
121
0.0
131
0.0
112
0.0
122
1.0
132
0.0
 79
     0
146
0.0
  0
ENDTAB
  0
TABLE
  2
LTYPE
  5
5
330
0
100
AcDbSymbolTable
 70
     6
  0
LTYPE
  5
14
330
5
100
AcDbSymbolTableRecord
100
AcDbLinetypeTableRecord
  2
ByBlock
 70
     0
  3

 72
    65
 73
     0
 40
0.0
  0
LTYPE
  5
15
330
5
100
AcDbSymbolTableRecord
100
AcDbLinetypeTableRecord
  2
ByLayer
 70
     0
  3

 72
    65
 73
     0
 40
0.0
  0
LTYPE
  5
16
330
5
100
AcDbSymbolTableRecord
100
AcDbLinetypeTableRecord
  2
Continuous
 70
     0
  3
Solid line
 72
    65
 73
     0
 40
0.0
  0
LTYPE
  5
6E
330
5
100
AcDbSymbolTableRecord
100
AcDbLinetypeTableRecord
  2
HIDDEN
 70
     0
  3
Hidden __ __ __ __ __ __ __ __ __ __ __ __ __ __
 72
    65
 73
     2
 40
1.905
 49
1.27
 74
     0
 49
-0.635
 74
     0
  0
LTYPE
  5
6F
330
5
100
AcDbSymbolTableRecord
100
AcDbLinetypeTableRecord
  2
PHANTOM
 70
     0
  3
Phantom ______  __  __  ______  __  __  ______
 72
    65
 73
     6
 40
12.7
 49
6.35
 74
     0
 49
-1.27
 74
     0
 49
1.27
 74
     0
 49
-1.27
 74
     0
 49
1.27
 74
     0
 49
-1.27
 74
     0
  0
LTYPE
  5
70
330
5
100
AcDbSymbolTableRecord
100
AcDbLinetypeTableRecord
  2
CENTER
 70
     0
  3
Center ____ _ ____ _ ____ _ ____ _ ____ _ ____
 72
    65
 73
     4
 40
10.16
 49
6.35
 74
     0
 49
-1.27
 74
     0
 49
1.27
 74
     0
 49
-1.27
 74
     0
  0
LTYPE
  5
71
330
5
100
AcDbSymbolTableRecord
100
AcDbLinetypeTableRecord
  2
CENTERX2
 70
     0
  3
Center (2x) ________  __  ________  __  _____
 72
    65
 73
     4
 40
20.32
 49
12.7
 74
     0
 49
-2.54
 74
     0
 49
2.54
 74
     0
 49
-2.54
 74
     0
  0
LTYPE
  5
72
330
5
100
AcDbSymbolTableRecord
100
AcDbLinetypeTableRecord
  2
DOT2
 70
     0
  3
Dot (.5x) ........................................
 72
    65
 73
     2
 40
0.635
 49
0.0
 74
     0
 49
-0.635
 74
     0
  0
ENDTAB
  0
TABLE
  2
LAYER
  5
2
330
0
100
AcDbSymbolTable
 70
    17
  0
LAYER
  5
10
330
2
100
AcDbSymbolTableRecord
100
AcDbLayerTableRecord
  2
0
 70
     0
 62
     7
  6
Continuous
370
    -3
390
F
  0
LAYER
  5
73
330
2
100
AcDbSymbolTableRecord
100
AcDbLayerTableRecord
  2
FORMAT
 70
     0
 62
     7
  6
Continuous
370
    -3
390
F
  0
LAYER
  5
74
330
2
100
AcDbSymbolTableRecord
100
AcDbLayerTableRecord
  2
YARDIMCI_GEOMETRI
 70
     0
 62
    -6
  6
Continuous
290
     0
370
    -3
390
F
  0
LAYER
  5
75
330
2
100
AcDbSymbolTableRecord
100
AcDbLayerTableRecord
  2
SAYFA_CERCEVESI
 70
     0
 62
     7
  6
Continuous
370
    25
390
F
  0
LAYER
  5
76
330
2
100
AcDbSymbolTableRecord
100
AcDbLayerTableRecord
  2
ANTET
 70
     0
 62
     7
  6
Continuous
370
    -3
390
F
  0
LAYER
  5
77
330
2
100
AcDbSymbolTableRecord
100
AcDbLayerTableRecord
  2
OLCU
 70
     0
 62
   150
  6
Continuous
370
    -3
390
F
  0
LAYER
  5
78
330
2
100
AcDbSymbolTableRecord
100
AcDbLayerTableRecord
  2
METIN
 70
     0
 62
    96
  6
Continuous
370
    -3
390
F
  0
LAYER
  5
79
330
2
100
AcDbSymbolTableRecord
100
AcDbLayerTableRecord
  2
BALON
 70
     0
 62
     5
  6
Continuous
370
    -3
390
F
  0
LAYER
  5
7A
330
2
100
AcDbSymbolTableRecord
100
AcDbLayerTableRecord
  2
VURGU
 70
     0
 62
     7
  6
Continuous
370
    -3
390
F
  0
LAYER
  5
7B
330
2
100
AcDbSymbolTableRecord
100
AcDbLayerTableRecord
  2
SILIK
 70
     0
 62
     7
  6
Continuous
370
    -3
390
F
  0
LAYER
  5
7C
330
2
100
AcDbSymbolTableRecord
100
AcDbLayerTableRecord
  2
MODEL
 70
     0
 62
     7
  6
Continuous
370
    -3
390
F
  0
LAYER
  5
7D
330
2
100
AcDbSymbolTableRecord
100
AcDbLayerTableRecord
  2
DETAYLANDıRMA
 70
     0
 62
   190
  6
Continuous
370
    -3
390
F
  0
LAYER
  5
7E
330
2
100
AcDbSymbolTableRecord
100
AcDbLayerTableRecord
  2
TOLERANS
 70
     0
 62
   230
  6
Continuous
370
    -3
390
F
  0
LAYER
  5
7F
330
2
100
AcDbSymbolTableRecord
100
AcDbLayerTableRecord
  2
MERKEZ_CIZGILERI
 70
     0
 62
    30
  6
Continuous
370
    -3
390
F
  0
LAYER
  5
80
330
2
100
AcDbSymbolTableRecord
100
AcDbLayerTableRecord
  2
KESIT-DETAY_CIZGILERI
 70
     0
 62
     7
  6
Continuous
370
    -3
390
F
  0
LAYER
  5
81
330
2
100
AcDbSymbolTableRecord
100
AcDbLayerTableRecord
  2
\U+041E\U+0421\U+0415\U+0412\U+042B\U+0415
 70
     0
 62
     7
  6
Continuous
370
    -3
390
F
  0
LAYER
  5
82
330
2
100
AcDbSymbolTableRecord
100
AcDbLayerTableRecord
  2
\U+0412\U+041E\U+0414\U+042F\U+041D\U+042B\U+0415_\U+0417\U+041D\U+0410\U+041A\U+0418
 70
     0
 62
    11
  6
Continuous
370
    -3
390
F
  0
ENDTAB
  0
TABLE
  2
STYLE
  5
3
330
0
100
AcDbSymbolTable
 70
     1
  0
STYLE
  5
11
330
3
100
AcDbSymbolTableRecord
100
AcDbTextStyleTableRecord
  2
Standard
 70
     0
 40
0.0
 41
1.0
 50
0.0
 71
     0
 42
3.5
  3
txt
  4

  0
ENDTAB
  0
TABLE
  2
VIEW
  5
6
330
0
100
AcDbSymbolTable
 70
     0
  0
ENDTAB
  0
TABLE
  2
UCS
  5
7
330
0
100
AcDbSymbolTable
 70
     0
  0
ENDTAB
  0
TABLE
  2
APPID
  5
9
330
0
100
AcDbSymbolTable
 70
     1
  0
APPID
  5
12
330
9
100
AcDbSymbolTableRecord
100
AcDbRegAppTableRecord
  2
ACAD
 70
     0
  0
ENDTAB
  0
TABLE
  2
DIMSTYLE
  5
A
330
0
100
AcDbSymbolTable
 70
     1
100
AcDbDimStyleTable
  0
DIMSTYLE
105
27
330
A
100
AcDbSymbolTableRecord
100
AcDbDimStyleTableRecord
  2
ISO-25
 70
     0
 41
2.5
 42
0.625
 43
3.75
 44
1.25
 73
     0
 74
     0
 77
     1
 78
     8
140
2.5
141
2.5
143
0.0393700787
147
0.625
171
     3
172
     1
178
     0
271
     2
272
     2
274
     3
278
    44
283
     0
284
     8
340
11
  0
ENDTAB
  0
TABLE
  2
BLOCK_RECORD
  5
1
330
0
100
AcDbSymbolTable
 70
     2
  0
BLOCK_RECORD
  5
1F
330
1
100
AcDbSymbolTableRecord
100
AcDbBlockTableRecord
  2
*Model_Space
340
22
  0
BLOCK_RECORD
  5
1B
330
1
100
AcDbSymbolTableRecord
100
AcDbBlockTableRecord
  2
*Paper_Space
340
1E
  0
BLOCK_RECORD
  5
23
330
1
100
AcDbSymbolTableRecord
100
AcDbBlockTableRecord
  2
*Paper_Space0
340
26
  0
BLOCK_RECORD
  5
85
330
1
100
AcDbSymbolTableRecord
100
AcDbBlockTableRecord
  2
SW_CENTERMARKSYMBOL_0
340
0
102
{BLKREFS
331
90
102
}
  0
ENDTAB
  0
ENDSEC
  0
SECTION
  2
BLOCKS
  0
BLOCK
  5
20
330
1F
100
AcDbEntity
  8
0
100
AcDbBlockBegin
  2
*Model_Space
 70
     0
 10
0.0
 20
0.0
 30
0.0
  3
*Model_Space
  1

  0
ENDBLK
  5
21
330
1F
100
AcDbEntity
  8
0
100
AcDbBlockEnd
  0
BLOCK
  5
1C
330
1B
100
AcDbEntity
 67
     1
  8
0
100
AcDbBlockBegin
  2
*Paper_Space
 70
     0
 10
0.0
 20
0.0
 30
0.0
  3
*Paper_Space
  1

  0
ENDBLK
  5
1D
330
1B
100
AcDbEntity
 67
     1
  8
0
100
AcDbBlockEnd
  0
BLOCK
  5
24
330
23
100
AcDbEntity
  8
0
100
AcDbBlockBegin
  2
*Paper_Space0
 70
     0
 10
0.0
 20
0.0
 30
0.0
  3
*Paper_Space0
  1

  0
ENDBLK
  5
25
330
23
100
AcDbEntity
  8
0
100
AcDbBlockEnd
  0
BLOCK
  5
86
330
85
100
AcDbEntity
  8
0
100
AcDbBlockBegin
  2
SW_CENTERMARKSYMBOL_0
 70
     0
 10
0.0
 20
0.0
 30
0.0
  3
SW_CENTERMARKSYMBOL_0
  1

  0
LINE
  5
88
330
85
100
AcDbEntity
  8
FORMAT
 62
     0
100
AcDbLine
 10
0.0
 20
0.0
 30
0.0
 11
0.0
 21
2.5
 31
0.0
  0
LINE
  5
89
330
85
100
AcDbEntity
  8
FORMAT
 62
     0
100
AcDbLine
 10
0.0
 20
0.0
 30
0.0
 11
-2.5
 21
0.0
 31
0.0
  0
LINE
  5
8A
330
85
100
AcDbEntity
  8
FORMAT
 62
     0
100
AcDbLine
 10
0.0
 20
0.0
 30
0.0
 11
0.0
 21
-2.5
 31
0.0
  0
LINE
  5
8B
330
85
100
AcDbEntity
  8
FORMAT
 62
     0
100
AcDbLine
 10
0.0
 20
0.0
 30
0.0
 11
2.5
 21
0.0
 31
0.0
  0
LINE
  5
8C
330
85
100
AcDbEntity
  8
FORMAT
 62
     0
100
AcDbLine
 10
0.0
 20
5.0
 30
0.0
 11
0.0
 21
127.5
 31
0.0
  0
LINE
  5
8D
330
85
100
AcDbEntity
  8
FORMAT
 62
     0
100
AcDbLine
 10
-5.0
 20
0.0
 30
0.0
 11
-127.5
 21
0.0
 31
0.0
  0
LINE
  5
8E
330
85
100
AcDbEntity
  8
FORMAT
 62
     0
100
AcDbLine
 10
0.0
 20
-5.0
 30
0.0
 11
0.0
 21
-127.5
 31
0.0
  0
LINE
  5
8F
330
85
100
AcDbEntity
  8
FORMAT
 62
     0
100
AcDbLine
 10
5.0
 20
0.0
 30
0.0
 11
127.5
 21
0.0
 31
0.0
  0
ENDBLK
  5
87
330
85
100
AcDbEntity
  8
0
100
AcDbBlockEnd
  0
ENDSEC
  0
SECTION
  2
ENTITIES
  0
CIRCLE
  5
83
330
1F
100
AcDbEntity
  8
0
  6
Continuous
 62
     7
370
    25
100
AcDbCircle
 10
145.1696851373
 20
107.9978248159
 30
0.0
 40
125.0
  0
CIRCLE
  5
84
330
1F
100
AcDbEntity
  8
0
  6
Continuous
 62
     7
370
    25
100
AcDbCircle
 10
145.1696851373
 20
107.9978248159
 30
0.0
 40
110.2
  0
INSERT
  5
90
330
1F
100
AcDbEntity
  8
FORMAT
 62
     7
100
AcDbBlockReference
  2
SW_CENTERMARKSYMBOL_0
 10
145.1696851373
 20
107.9978248159
 30
0.0
  0
ARC
  5
91
330
1F
100
AcDbEntity
  8
0
  6
Continuous
 62
     7
370
    25
100
AcDbCircle
 10
140.9914581236
 20
213.9344553556
 30
0.0
 40
499.9999999999999
100
AcDbArc
 50
256.0164359054
 51
270.0
  0
ARC
  5
92
330
1F
100
AcDbEntity
  8
0
  6
Continuous
 62
     7
370
    25
100
AcDbCircle
 10
149.3479121509
 20
213.9344553556
 30
0.0
 40
499.9999999999999
100
AcDbArc
 50
270.0
 51
283.9835640946
  0
LINE
  5
93
330
1F
100
AcDbEntity
  8
0
  6
Continuous
 62
     7
370
    25
100
AcDbLine
 10
140.9914581236
 20
-286.0655446444
 30
0.0
 11
149.3479121509
 21
-286.0655446444
 31
0.0
  0
LINE
  5
94
330
1F
100
AcDbEntity
  8
0
  6
Continuous
 62
     7
370
    25
100
AcDbLine
 10
20.1696851373
 20
-124.5409298613
 30
0.0
 11
20.1696851373
 21
-271.2480867587
 31
0.0
  0
LINE
  5
95
330
1F
100
AcDbEntity
  8
0
  6
Continuous
 62
     7
370
    25
100
AcDbLine
 10
270.1696851373
 20
-271.2480867587
 30
0.0
 11
270.1696851373
 21
-124.5409298613
 31
0.0
  0
LINE
  5
96
330
1F
100
AcDbEntity
  8
0
  6
Continuous
 62
     7
370
    25
100
AcDbLine
 10
145.1696851373
 20
-271.2480867587
 30
0.0
 11
270.1696851373
 21
-271.2480867587
 31
0.0
  0
LINE
  5
97
330
1F
100
AcDbEntity
  8
0
  6
Continuous
 62
     7
370
    25
100
AcDbLine
 10
20.1696851373
 20
-271.2480867587
 30
0.0
 11
145.1696851373
 21
-271.2480867587
 31
0.0
  0
LINE
  5
98
330
1F
100
AcDbEntity
  8
0
  6
Continuous
 62
     7
370
    25
100
AcDbLine
 10
145.1696851373
 20
-124.5409298613
 30
0.0
 11
270.1696851373
 21
-124.5409298613
 31
0.0
  0
LINE
  5
99
330
1F
100
AcDbEntity
  8
0
  6
Continuous
 62
     7
370
    25
100
AcDbLine
 10
20.1696851373
 20
-124.5409298613
 30
0.0
 11
145.1696851373
 21
-124.5409298613
 31
0.0
  0
LINE
  5
9A
330
1F
100
AcDbEntity
  8
0
  6
Continuous
 62
     7
370
    25
100
AcDbLine
 10
270.1696851373
 20
337.5640012388
 30
0.0
 11
270.1696851373
 21
484.2711581362
 31
0.0
  0
LINE
  5
9B
330
1F
100
AcDbEntity
  8
0
  6
Continuous
 62
     7
370
    25
100
AcDbLine
 10
20.1696851373
 20
484.2711581362
 30
0.0
 11
20.1696851373
 21
337.5640012388
 31
0.0
  0
ARC
  5
9C
330
1F
100
AcDbEntity
  8
0
  6
Continuous
 62
     7
370
    25
100
AcDbCircle
 10
149.3479121509
 20
-0.9113839781
 30
0.0
 40
500.0
100
AcDbArc
 50
76.0164359054
 51
90.0
  0
ARC
  5
9D
330
1F
100
AcDbEntity
  8
0
  6
Continuous
 62
     7
370
    25
100
AcDbCircle
 10
140.9914581236
 20
-0.9113839781
 30
0.0
 40
499.9999999999999
100
AcDbArc
 50
90.0
 51
103.9835640946
  0
LINE
  5
9E
330
1F
100
AcDbEntity
  8
0
  6
Continuous
 62
     7
370
    25
100
AcDbLine
 10
149.3479121509
 20
499.0886160219
 30
0.0
 11
140.9914581236
 21
499.0886160219
 31
0.0
  0
LINE
  5
9F
330
1F
100
AcDbEntity
  8
0
  6
Continuous
 62
     7
370
    25
100
AcDbLine
 10
270.1696851373
 20
337.5640012388
 30
0.0
 11
20.1696851373
 21
337.5640012388
 31
0.0
  0
LINE
  5
A0
330
1F
100
AcDbEntity
  8
0
  6
Continuous
 62
     7
370
    25
100
AcDbLine
 10
270.1696851373
 20
484.2711581362
 30
0.0
 11
20.1696851373
 21
484.2711581362
 31
0.0
  0
ARC
  5
A1
330
1F
100
AcDbEntity
  8
0
  6
Continuous
 62
     7
370
    25
100
AcDbCircle
 10
850.2926802493
 20
112.1760518296
 30
0.0
 40
500.0
100
AcDbArc
 50
166.0164359054
 51
180.0
  0
ARC
  5
A2
330
1F
100
AcDbEntity
  8
0
  6
Continuous
 62
     7
370
    25
100
AcDbCircle
 10
850.2926802493
 20
103.8195978023
 30
0.0
 40
499.9999999999999
100
AcDbArc
 50
180.0
 51
193.9835640946
  0
LINE
  5
A3
330
1F
100
AcDbEntity
  8
0
  6
Continuous
 62
     7
370
    25
100
AcDbLine
 10
350.2926802493
 20
112.1760518296
 30
0.0
 11
350.2926802493
 21
103.8195978023
 31
0.0
  0
LINE
  5
A4
330
1F
100
AcDbEntity
  8
0
  6
Continuous
 62
     7
370
    25
100
AcDbLine
 10
511.8172950324
 20
232.9978248159
 30
0.0
 11
365.110138135
 21
232.9978248159
 31
0.0
  0
LINE
  5
A5
330
1F
100
AcDbEntity
  8
0
  6
Continuous
 62
     7
370
    25
100
AcDbLine
 10
365.110138135
 20
-17.0021751841
 30
0.0
 11
511.8172950324
 21
-17.0021751841
 31
0.0
  0
LINE
  5
A6
330
1F
100
AcDbEntity
  8
0
  6
Continuous
 62
     7
370
    25
100
AcDbLine
 10
365.110138135
 20
232.9978248159
 30
0.0
 11
365.110138135
 21
-17.0021751841
 31
0.0
  0
LINE
  5
A7
330
1F
100
AcDbEntity
  8
0
  6
Continuous
 62
     7
370
    25
100
AcDbLine
 10
511.8172950324
 20
232.9978248159
 30
0.0
 11
511.8172950324
 21
-17.0021751841
 31
0.0
  0
ARC
  5
A8
330
1F
100
AcDbEntity
  8
0
  6
Continuous
 62
     7
370
    25
100
AcDbCircle
 10
-575.3569985618
 20
103.8195978023
 30
0.0
 40
499.9999999999999
100
AcDbArc
 50
346.0164359054
 51
0.0
  0
ARC
  5
A9
330
1F
100
AcDbEntity
  8
0
  6
Continuous
 62
     7
370
    25
100
AcDbCircle
 10
-575.3569985618
 20
112.1760518296
 30
0.0
 40
499.9999999999998
100
AcDbArc
 50
0.0
 51
13.9835640946
  0
LINE
  5
AA
330
1F
100
AcDbEntity
  8
0
  6
Continuous
 62
     7
370
    25
100
AcDbLine
 10
-75.3569985618
 20
103.8195978023
 30
0.0
 11
-75.3569985618
 21
112.1760518296
 31
0.0
  0
LINE
  5
AB
330
1F
100
AcDbEntity
  8
0
  6
Continuous
 62
     7
370
    25
100
AcDbLine
 10
-236.8816133449
 20
-17.0021751841
 30
0.0
 11
-90.1744564475
 21
-17.0021751841
 31
0.0
  0
LINE
  5
AC
330
1F
100
AcDbEntity
  8
0
  6
Continuous
 62
     7
370
    25
100
AcDbLine
 10
-90.1744564475
 20
232.9978248159
 30
0.0
 11
-236.8816133449
 21
232.9978248159
 31
0.0
  0
LINE
  5
AD
330
1F
100
AcDbEntity
  8
0
  6
Continuous
 62
     7
370
    25
100
AcDbLine
 10
-90.1744564475
 20
-17.0021751841
 30
0.0
 11
-90.1744564475
 21
232.9978248159
 31
0.0
  0
LINE
  5
AE
330
1F
100
AcDbEntity
  8
0
  6
Continuous
 62
     7
370
    25
100
AcDbLine
 10
-236.8816133449
 20
-17.0021751841
 30
0.0
 11
-236.8816133449
 21
232.9978248159
 31
0.0
  0
LINE
  5
AF
330
1F
100
AcDbEntity
  8
0
  6
Continuous
 62
     7
370
    25
100
AcDbLine
 10
366.3085967615
 20
-281.1505593826
 30
0.0
 11
470.0462222523
 21
-341.0370158594
 31
0.0
  0
LINE
  5
B0
330
1F
100
AcDbEntity
  8
0
  6
Continuous
 62
     7
370
    25
100
AcDbLine
 10
595.0360638318
 20
-124.5248002642
 30
0.0
 11
491.298438341
 21
-64.6383437875
 31
0.0
  0
LWPOLYLINE
  5
B1
330
1F
100
AcDbEntity
  8
0
  6
Continuous
 62
     7
370
    25
100
AcDbPolyline
 90
      137
 70
   128
 43
0.0
 10
428.8035175513
 20
-274.9620530708
 10
432.8855971497
 20
-272.4966099762
 10
436.9589653845
 20
-269.8186108562
 10
441.0149294826
 20
-266.9337706958
 10
445.0448338123
 20
-263.8482458892
 10
449.0400783546
 20
-260.568621102
 10
452.9921370563
 20
-257.1018952186
 10
456.892576025
 20
-253.4554664069
 10
460.7330715273
 20
-249.6371163297
 10
464.5054277524
 20
-245.6549935384
 10
468.2015943019
 20
-241.5175960838
 10
471.8136833701
 20
-237.2337533806
 10
475.333986577
 20
-232.8126073649
 10
478.754991418
 20
-228.2635929853
 10
482.0693972965
 20
-223.5964180675
 10
485.2701311033
 20
-218.8210425981
 10
488.3503623111
 20
-213.947657469
 10
491.3035175513
 20
-208.9866627297
 10
494.1232946418
 20
-203.9486453929
 10
496.8036760362
 20
-198.8443568416
 10
499.3389416655
 20
-193.6846898846
 10
501.7236811451
 20
-188.4806555114
 10
503.9528053207
 20
-183.2433593936
 10
506.0215571291
 20
-177.983978185
 10
507.9255217496
 20
-172.7137356701
 10
509.6606360258
 20
-167.4438788121
 10
511.2231971363
 20
-162.185653751
 10
512.609870497
 20
-156.9502818042
 10
513.8176968771
 20
-151.7489355193
 10
514.8440987142
 20
-146.5927148312
 10
515.6868856151
 20
-141.4926233749
 10
516.34425903
 20
-136.4595450025
 10
516.814816091
 20
-131.5042205568
 10
517.0975526055
 20
-126.6372249501
 10
517.1918651996
 20
-121.8689445961
 10
517.0975526055
 20
-117.2095552455
 10
516.814816091
 20
-112.66900027
 10
516.34425903
 20
-108.2569694426
 10
515.6868856151
 20
-103.9828782595
 10
514.8440987142
 20
-99.8558478467
 10
513.8176968771
 20
-95.8846854951
 10
512.609870497
 20
-92.0778658653
 10
511.2231971363
 20
-88.4435129022
 10
509.6606360258
 20
-84.9893824981
 10
507.9255217496
 20
-81.7228459415
 10
506.0215571291
 20
-78.6508741859
 10
503.9528053207
 20
-75.7800229739
 10
501.7236811451
 20
-73.1164188467
 10
499.3389416655
 20
-70.6657460697
 10
496.8036760362
 20
-68.4332345021
 10
494.1232946418
 20
-66.4236484361
 10
491.3035175513
 20
-64.6412764297
 10
488.3503623111
 20
-63.0899221545
 10
485.2701311033
 20
-61.7728962787
 10
482.0693972965
 20
-60.6930094019
 10
478.754991418
 20
-59.8525660572
 10
475.333986577
 20
-59.253359793
 10
471.8136833701
 20
-58.8966693456
 10
468.2015943019
 20
-58.7832559105
 10
464.5054277524
 20
-58.9133615176
 10
460.7330715273
 20
-59.286708515
 10
456.892576025
 20
-59.9025001614
 10
452.9921370563
 20
-60.7594223264
 10
449.0400783546
 20
-61.8556462949
 10
445.0448338123
 20
-63.1888326698
 10
441.0149294826
 20
-64.756136364
 10
436.9589653845
 20
-66.5542126726
 10
432.8855971497
 20
-68.5792244101
 10
428.8035175513
 20
-70.8268500993
 10
424.7214379529
 20
-73.2922931939
 10
420.6480697181
 20
-75.9702923139
 10
416.59210562
 20
-78.8551324743
 10
412.5622012903
 20
-81.9406572809
 10
408.566956748
 20
-85.2202820681
 10
404.6148980463
 20
-88.6870079515
 10
400.7144590776
 20
-92.3334367632
 10
396.8739635753
 20
-96.1517868404
 10
393.1016073502
 20
-100.1339096317
 10
389.4054408007
 20
-104.2713070863
 10
385.7933517325
 20
-108.5551497895
 10
382.2730485256
 20
-112.9762958052
 10
378.8520436846
 20
-117.5253101848
 10
375.5376378061
 20
-122.1924851026
 10
372.3369039993
 20
-126.967860572
 10
369.2566727915
 20
-131.8412457011
 10
366.3035175513
 20
-136.8022404404
 10
363.4837404608
 20
-141.8402577772
 10
360.8033590664
 20
-146.9445463285
 10
358.2680934371
 20
-152.1042132855
 10
355.8833539575
 20
-157.3082476586
 10
353.6542297819
 20
-162.5455437765
 10
351.5854779735
 20
-167.8049249851
 10
349.681513353
 20
-173.0751675
 10
347.9463990768
 20
-178.345024358
 10
346.3838379663
 20
-183.6032494191
 10
344.9971646056
 20
-188.8386213659
 10
343.7893382255
 20
-194.0399676508
 10
342.7629363884
 20
-199.1961883389
 10
341.9201494875
 20
-204.2962797952
 10
341.2627760726
 20
-209.3293581676
 10
340.7922190116
 20
-214.2846826133
 10
340.5094824971
 20
-219.15167822
 10
340.415169903
 20
-223.919958574
 10
340.5094824971
 20
-228.5793479246
 10
340.7922190116
 20
-233.1199029001
 10
341.2627760726
 20
-237.5319337275
 10
341.9201494875
 20
-241.8060249106
 10
342.7629363884
 20
-245.9330553234
 10
343.7893382255
 20
-249.904217675
 10
344.9971646056
 20
-253.7110373048
 10
346.3838379663
 20
-257.3453902679
 10
347.9463990768
 20
-260.799520672
 10
349.681513353
 20
-264.0660572286
 10
351.5854779735
 20
-267.1380289842
 10
353.6542297819
 20
-270.0088801961
 10
355.8833539575
 20
-272.6724843234
 10
358.2680934371
 20
-275.1231571004
 10
360.8033590664
 20
-277.355668668
 10
363.4837404608
 20
-279.3652547339
 10
366.3035175513
 20
-281.1476267404
 10
369.2566727915
 20
-282.6989810156
 10
372.3369039993
 20
-284.0160068914
 10
375.5376378061
 20
-285.0958937682
 10
378.8520436846
 20
-285.9363371129
 10
382.2730485256
 20
-286.5355433771
 10
385.7933517325
 20
-286.8922338245
 10
389.4054408007
 20
-287.0056472596
 10
393.1016073502
 20
-286.8755416525
 10
396.8739635753
 20
-286.5021946551
 10
400.7144590776
 20
-285.8864030087
 10
404.6148980463
 20
-285.0294808437
 10
408.566956748
 20
-283.9332568752
 10
412.5622012903
 20
-282.6000705003
 10
416.59210562
 20
-281.0327668061
 10
420.6480697181
 20
-279.2346904975
 10
424.7214379529
 20
-277.20967876
 10
428.8035175513
 20
-274.9620530708
  0
LWPOLYLINE
  5
B2
330
1F
100
AcDbEntity
  8
0
  6
Continuous
 62
     7
370
    25
100
AcDbPolyline
 90
       53
 70
   128
 43
0.0
 10
532.541143042
 20
-334.8485095475
 10
536.6232226404
 20
-332.383066453
 10
540.6965908752
 20
-329.7050673329
 10
544.7525549733
 20
-326.8202271725
 10
548.782459303
 20
-323.7347023659
 10
552.7777038453
 20
-320.4550775787
 10
556.729762547
 20
-316.9883516954
 10
560.6302015157
 20
-313.3419228836
 10
564.470697018
 20
-309.5235728064
 10
568.2430532431
 20
-305.5414500151
 10
571.9392197926
 20
-301.4040525605
 10
575.5513088608
 20
-297.1202098573
 10
579.0716120677
 20
-292.6990638417
 10
582.4926169087
 20
-288.150049462
 10
585.8070227872
 20
-283.4828745442
 10
589.007756594
 20
-278.7074990748
 10
592.0879878018
 20
-273.8341139458
 10
595.041143042
 20
-268.8731192064
 10
597.8609201325
 20
-263.8351018696
 10
600.5413015269
 20
-258.7308133183
 10
603.0765671562
 20
-253.5711463614
 10
605.4613066358
 20
-248.3671119882
 10
607.6904308115
 20
-243.1298158703
 10
609.7591826198
 20
-237.8704346617
 10
611.6631472403
 20
-232.6001921468
 10
613.3982615165
 20
-227.3303352888
 10
614.960822627
 20
-222.0721102278
 10
616.3474959878
 20
-216.836738281
 10
617.5553223679
 20
-211.635391996
 10
618.581724205
 20
-206.479171308
 10
619.4245111058
 20
-201.3790798516
 10
620.0818845208
 20
-196.3460014792
 10
620.5524415817
 20
-191.3906770336
 10
620.8351780962
 20
-186.5236814268
 10
620.9294906904
 20
-181.7554010729
 10
620.8351780962
 20
-177.0960117223
 10
620.5524415817
 20
-172.5554567467
 10
620.0818845208
 20
-168.1434259193
 10
619.4245111058
 20
-163.8693347362
 10
618.581724205
 20
-159.7423043235
 10
617.5553223679
 20
-155.7711419719
 10
616.3474959878
 20
-151.964322342
 10
614.960822627
 20
-148.3299693789
 10
613.3982615165
 20
-144.8758389748
 10
611.6631472403
 20
-141.6093024182
 10
609.7591826198
 20
-138.5373306626
 10
607.6904308115
 20
-135.6664794507
 10
605.4613066358
 20
-133.0028753235
 10
603.0765671562
 20
-130.5522025465
 10
600.5413015269
 20
-128.3196909789
 10
597.8609201325
 20
-126.3101049129
 10
595.041143042
 20
-124.5277329064
 10
595.0360638318
 20
-124.5248002642
  0
LWPOLYLINE
  5
B3
330
1F
100
AcDbEntity
  8
0
  6
Continuous
 62
     7
370
    25
100
AcDbPolyline
 90
       18
 70
   128
 43
0.0
 10
470.0462222523
 20
-341.0370158594
 10
472.9942982822
 20
-342.5854374923
 10
476.0745294901
 20
-343.9024633681
 10
479.2752632968
 20
-344.9823502449
 10
482.5896691753
 20
-345.8227935896
 10
486.0106740164
 20
-346.4219998539
 10
489.5309772232
 20
-346.7786903012
 10
493.1430662915
 20
-346.8921037364
 10
496.839232841
 20
-346.7619981293
 10
500.611589066
 20
-346.3886511318
 10
504.4520845684
 20
-345.7728594854
 10
508.3525235371
 20
-344.9159373204
 10
512.3045822388
 20
-343.8197133519
 10
516.2998267811
 20
-342.4865269771
 10
520.3297311107
 20
-340.9192232828
 10
524.3856952089
 20
-339.1211469742
 10
528.4590634437
 20
-337.0961352368
 10
532.541143042
 20
-334.8485095475
  0
LWPOLYLINE
  5
B4
330
1F
100
AcDbEntity
  8
0
  6
Continuous
 62
     7
370
    25
100
AcDbPolyline
 90
      129
 70
   128
 43
0.0
 10
428.8035175513
 20
-262.8772490549
 10
432.6270261463
 20
-260.5615963056
 10
436.4413235742
 20
-258.0347457259
 10
440.2372208583
 20
-255.3027847203
 10
444.0055733498
 20
-252.372294822
 10
447.7373027573
 20
-249.250335838
 10
451.4234190178
 20
-245.9444288407
 10
455.0550419544
 20
-242.4625380499
 10
458.6234226693
 20
-238.8130516453
 10
462.119964621
 20
-235.0047615594
 10
465.5362443334
 20
-231.0468422965
 10
468.8640316896
 20
-226.9488288309
 10
472.0953097584
 20
-222.7205936358
 10
475.2222941079
 20
-218.3723229003
 10
478.2374515588
 20
-213.9144919895
 10
481.1335183328
 20
-209.3578402083
 10
483.9035175513
 20
-204.7133449302
 10
486.5407760436
 20
-199.9921951509
 10
489.0389404231
 20
-195.205764534
 10
491.3919923928
 20
-190.3655840099
 10
493.5942632446
 20
-185.4833139975
 10
495.640447515
 20
-180.5707163129
 10
497.5256157669
 20
-175.6396258342
 10
499.2452264648
 20
-170.7019219903
 10
500.795136916
 20
-165.7695001422
 10
502.1716132504
 20
-160.8542429263
 10
503.371339416
 20
-155.9679916275
 10
504.3914251674
 20
-151.1225176534
 10
505.2294130285
 20
-146.3294941752
 10
505.8832842134
 20
-141.6004680061
 10
506.351463489
 20
-136.9468317846
 10
506.6328229704
 20
-132.3797965277
 10
506.7266848381
 20
-127.9103646236
 10
506.6328229704
 20
-123.5493033251
 10
506.351463489
 20
-119.3071188109
 10
505.8832842134
 20
-115.194030875
 10
505.2294130285
 20
-111.2199483066
 10
504.3914251674
 20
-107.3944450186
 10
503.371339416
 20
-103.7267369836
 10
502.1716132504
 20
-100.2256600314
 10
500.795136916
 20
-96.8996485631
 10
499.2452264648
 20
-93.7567152317
 10
497.5256157669
 20
-90.8044316387
 10
495.640447515
 20
-88.0499100941
 10
493.5942632446
 20
-85.4997864814
 10
491.3919923928
 20
-83.1602042718
 10
489.0389404231
 20
-81.0367997238
 10
486.5407760436
 20
-79.1346883049
 10
483.9035175513
 20
-77.4584523681
 10
481.1335183328
 20
-76.0121301126
 10
478.2374515588
 20
-74.7992058555
 10
475.2222941079
 20
-73.8226016374
 10
472.0953097584
 20
-73.0846701836
 10
468.8640316896
 20
-72.5871892354
 10
465.5362443334
 20
-72.3313572682
 10
462.119964621
 20
-72.3177906034
 10
458.6234226693
 20
-72.5465219244
 10
455.0550419544
 20
-73.0170001974
 10
451.4234190178
 20
-73.728091999
 10
447.7373027573
 20
-74.6780842468
 10
444.0055733498
 20
-75.8646883262
 10
440.2372208583
 20
-77.2850456042
 10
436.4413235742
 20
-78.9357343156
 10
432.6270261463
 20
-80.8127778066
 10
428.8035175513
 20
-82.9116541152
 10
424.9800089563
 20
-85.2273068645
 10
421.1657115284
 20
-87.7541574441
 10
417.3698142442
 20
-90.4861184498
 10
413.6014617528
 20
-93.4166083481
 10
409.8697323453
 20
-96.5385673321
 10
406.1836160848
 20
-99.8444743293
 10
402.5519931482
 20
-103.3263651202
 10
398.9836124332
 20
-106.9758515248
 10
395.4870704816
 20
-110.7841416107
 10
392.0707907692
 20
-114.7420608736
 10
388.7430034129
 20
-118.8400743392
 10
385.5117253442
 20
-123.0683095343
 10
382.3847409947
 20
-127.4165802697
 10
379.3695835438
 20
-131.8744111806
 10
376.4735167698
 20
-136.4310629618
 10
373.7035175513
 20
-141.0755582399
 10
371.0662590589
 20
-145.7967080191
 10
368.5680946795
 20
-150.5831386361
 10
366.2150427097
 20
-155.4233191602
 10
364.012771858
 20
-160.3055891726
 10
361.9665875876
 20
-165.2181868572
 10
360.0814193357
 20
-170.1492773359
 10
358.3618086378
 20
-175.0869811798
 10
356.8118981866
 20
-180.0194030279
 10
355.4354218522
 20
-184.9346602438
 10
354.2356956866
 20
-189.8209115425
 10
353.2156099352
 20
-194.6663855166
 10
352.377622074
 20
-199.4594089949
 10
351.7237508892
 20
-204.1884351639
 10
351.2555716136
 20
-208.8420713855
 10
350.9742121322
 20
-213.4091066423
 10
350.8803502645
 20
-217.8785385465
 10
350.9742121322
 20
-222.239599845
 10
351.2555716136
 20
-226.4817843592
 10
351.7237508892
 20
-230.5948722951
 10
352.377622074
 20
-234.5689548635
 10
353.2156099352
 20
-238.3944581515
 10
354.2356956866
 20
-242.0621661865
 10
355.4354218522
 20
-245.5632431387
 10
356.8118981866
 20
-248.889254607
 10
358.3618086378
 20
-252.0321879384
 10
360.0814193357
 20
-254.9844715314
 10
361.9665875876
 20
-257.738993076
 10
364.012771858
 20
-260.2891166887
 10
366.2150427097
 20
-262.6286988983
 10
368.5680946795
 20
-264.7521034463
 10
371.0662590589
 20
-266.6542148652
 10
373.7035175513
 20
-268.330450802
 10
376.4735167698
 20
-269.7767730575
 10
379.3695835438
 20
-270.9896973146
 10
382.3847409947
 20
-271.9663015326
 10
385.5117253442
 20
-272.7042329865
 10
388.7430034129
 20
-273.2017139347
 10
392.0707907692
 20
-273.4575459019
 10
395.4870704816
 20
-273.4711125667
 10
398.9836124332
 20
-273.2423812457
 10
402.5519931482
 20
-272.7719029727
 10
406.1836160848
 20
-272.0608111711
 10
409.8697323453
 20
-271.1108189233
 10
413.6014617528
 20
-269.9242148438
 10
417.3698142442
 20
-268.5038575659
 10
421.1657115284
 20
-266.8531688545
 10
424.9800089563
 20
-264.9761253635
 10
428.8035175513
 20
-262.8772490549
  0
ARC
  5
B5
330
1F
100
AcDbEntity
  8
0
  6
Continuous
 62
     7
370
    25
100
AcDbCircle
 10
625.4988108225
 20
-286.4442274156
 30
0.0
 40
180.6075270916861
100
AcDbArc
 50
132.2486641164
 51
167.7567124163
  0
ENDSEC
  0
SECTION
  2
OBJECTS
  0
DICTIONARY
  5
C
330
0
100
AcDbDictionary
281
     1
  3
ACAD_GROUP
350
D
  3
ACAD_LAYOUT
350
1A
  3
ACAD_MLINESTYLE
350
17
  3
ACAD_PLOTSETTINGS
350
19
  3
ACAD_PLOTSTYLENAME
350
E
  3
ACAD_SCALELIST
350
47
  3
DWGPROPS
350
B6
  0
DICTIONARY
  5
D
102
{ACAD_REACTORS
330
C
102
}
330
C
100
AcDbDictionary
281
     1
  0
DICTIONARY
  5
1A
102
{ACAD_REACTORS
330
C
102
}
330
C
100
AcDbDictionary
281
     1
  3
Layout1
350
1E
  3
Layout2
350
26
  3
Model
350
22
  0
DICTIONARY
  5
17
102
{ACAD_REACTORS
330
C
102
}
330
C
100
AcDbDictionary
281
     1
  3
Standard
350
18
  0
DICTIONARY
  5
19
102
{ACAD_REACTORS
330
C
102
}
330
C
100
AcDbDictionary
281
     1
  0
ACDBDICTIONARYWDFLT
  5
E
102
{ACAD_REACTORS
330
C
102
}
330
C
100
AcDbDictionary
281
     1
  3
Normal
350
F
100
AcDbDictionaryWithDefault
340
F
  0
DICTIONARY
  5
47
102
{ACAD_REACTORS
330
C
102
}
330
C
100
AcDbDictionary
281
     1
  3
A0
350
48
  3
A1
350
49
  3
A2
350
4A
  3
A3
350
4B
  3
A4
350
4C
  3
A5
350
4D
  3
A6
350
4E
  3
A7
350
4F
  3
A8
350
50
  3
A9
350
51
  3
B0
350
52
  3
B1
350
53
  3
B2
350
54
  3
B3
350
55
  3
B4
350
56
  3
B5
350
57
  3
B6
350
58
  3
B7
350
59
  3
B8
350
5A
  3
B9
350
5B
  3
C0
350
5C
  3
C1
350
5D
  3
C2
350
5E
  3
C3
350
5F
  3
C4
350
60
  3
C5
350
61
  3
C6
350
62
  3
C7
350
63
  3
C8
350
64
  3
C9
350
65
  3
D0
350
66
  3
D1
350
67
  3
D2
350
68
  0
XRECORD
  5
B6
102
{ACAD_REACTORS
330
C
102
}
330
C
100
AcDbXrecord
280
     1
  1
DWGPROPS COOKIE
  2

  3

  4

  6

  7

  8
b.kav
  9

300
=
301
=
302
=
303
=
304
=
305
=
306
=
307
=
308
=
309
=
 40
0.0
 41
2460704.335251261
 42
2460704.335251331
  1

 90
        0
  0
LAYOUT
  5
1E
102
{ACAD_REACTORS
330
1A
102
}
330
1A
100
AcDbPlotSettings
  1

  2
none_device
  4

  6

 40
0.0
 41
0.0
 42
0.0
 43
0.0
 44
0.0
 45
0.0
 46
0.0
 47
0.0
 48
0.0
 49
0.0
140
0.0
141
0.0
142
1.0
143
1.0
 70
   688
 72
     1
 73
     0
 74
     5
  7

 75
    16
147
1.0
148
0.0
149
0.0
100
AcDbLayout
  1
Layout1
 70
     1
 71
     1
 10
0.0
 20
0.0
 11
420.0
 21
297.0
 12
0.0
 22
0.0
 32
0.0
 14
1.0000000000E+20
 24
1.0000000000E+20
 34
1.0000000000E+20
 15
-1.0000000000E+20
 25
-1.0000000000E+20
 35
-1.0000000000E+20
146
0.0
 13
0.0
 23
0.0
 33
0.0
 16
1.0
 26
0.0
 36
0.0
 17
0.0
 27
1.0
 37
0.0
 76
     0
330
1B
  0
LAYOUT
  5
26
102
{ACAD_REACTORS
330
1A
102
}
330
1A
100
AcDbPlotSettings
  1

  2
none_device
  4

  6

 40
0.0
 41
0.0
 42
0.0
 43
0.0
 44
0.0
 45
0.0
 46
0.0
 47
0.0
 48
0.0
 49
0.0
140
0.0
141
0.0
142
1.0
143
1.0
 70
   688
 72
     1
 73
     0
 74
     5
  7

 75
    16
147
1.0
148
0.0
149
0.0
100
AcDbLayout
  1
Layout2
 70
     1
 71
     2
 10
0.0
 20
0.0
 11
0.0
 21
0.0
 12
0.0
 22
0.0
 32
0.0
 14
0.0
 24
0.0
 34
0.0
 15
0.0
 25
0.0
 35
0.0
146
0.0
 13
0.0
 23
0.0
 33
0.0
 16
1.0
 26
0.0
 36
0.0
 17
0.0
 27
1.0
 37
0.0
 76
     0
330
23
  0
LAYOUT
  5
22
102
{ACAD_REACTORS
330
1A
102
}
330
1A
100
AcDbPlotSettings
  1

  2
none_device
  4
Letter_(8.50_x_11.00_Inches)
  6

 40
6.35
 41
6.35
 42
6.35000508
 43
6.35000508
 44
215.9
 45
279.4
 46
0.0
 47
0.0
 48
0.0
 49
0.0
140
0.0
141
0.0
142
1.0
143
1.0
 70
  1712
 72
     1
 73
     0
 74
     0
  7

 75
     0
147
1.0
148
0.0
149
0.0
100
AcDbLayout
  1
Model
 70
     1
 71
     0
 10
0.0
 20
0.0
 11
279.4
 21
215.9
 12
0.0
 22
0.0
 32
0.0
 14
0.0
 24
0.0
 34
0.0
 15
279.4
 25
215.9
 35
0.0
146
0.0
 13
0.0
 23
0.0
 33
0.0
 16
1.0
 26
0.0
 36
0.0
 17
0.0
 27
1.0
 37
0.0
 76
     0
330
1F
331
29
  0
MLINESTYLE
  5
18
102
{ACAD_REACTORS
330
17
102
}
330
17
100
AcDbMlineStyle
  2
Standard
 70
     0
  3

 62
   256
 51
90.0
 52
90.0
 71
     2
 49
0.5
 62
   256
  6
BYLAYER
 49
-0.5
 62
   256
  6
BYLAYER
  0
ACDBPLACEHOLDER
  5
F
102
{ACAD_REACTORS
330
E
102
}
330
E
  0
SCALE
  5
48
102
{ACAD_REACTORS
330
47
102
}
330
47
100
AcDbScale
 70
     0
300
1:1
140
1.0
141
1.0
290
     1
  0
SCALE
  5
49
102
{ACAD_REACTORS
330
47
102
}
330
47
100
AcDbScale
 70
     0
300
1:2
140
1.0
141
2.0
290
     0
  0
SCALE
  5
4A
102
{ACAD_REACTORS
330
47
102
}
330
47
100
AcDbScale
 70
     0
300
1:4
140
1.0
141
4.0
290
     0
  0
SCALE
  5
4B
102
{ACAD_REACTORS
330
47
102
}
330
47
100
AcDbScale
 70
     0
300
1:5
140
1.0
141
5.0
290
     0
  0
SCALE
  5
4C
102
{ACAD_REACTORS
330
47
102
}
330
47
100
AcDbScale
 70
     0
300
1:8
140
1.0
141
8.0
290
     0
  0
SCALE
  5
4D
102
{ACAD_REACTORS
330
47
102
}
330
47
100
AcDbScale
 70
     0
300
1:10
140
1.0
141
10.0
290
     0
  0
SCALE
  5
4E
102
{ACAD_REACTORS
330
47
102
}
330
47
100
AcDbScale
 70
     0
300
1:16
140
1.0
141
16.0
290
     0
  0
SCALE
  5
4F
102
{ACAD_REACTORS
330
47
102
}
330
47
100
AcDbScale
 70
     0
300
1:20
140
1.0
141
20.0
290
     0
  0
SCALE
  5
50
102
{ACAD_REACTORS
330
47
102
}
330
47
100
AcDbScale
 70
     0
300
1:30
140
1.0
141
30.0
290
     0
  0
SCALE
  5
51
102
{ACAD_REACTORS
330
47
102
}
330
47
100
AcDbScale
 70
     0
300
1:40
140
1.0
141
40.0
290
     0
  0
SCALE
  5
52
102
{ACAD_REACTORS
330
47
102
}
330
47
100
AcDbScale
 70
     0
300
1:50
140
1.0
141
50.0
290
     0
  0
SCALE
  5
53
102
{ACAD_REACTORS
330
47
102
}
330
47
100
AcDbScale
 70
     0
300
1:100
140
1.0
141
100.0
290
     0
  0
SCALE
  5
54
102
{ACAD_REACTORS
330
47
102
}
330
47
100
AcDbScale
 70
     0
300
2:1
140
2.0
141
1.0
290
     0
  0
SCALE
  5
55
102
{ACAD_REACTORS
330
47
102
}
330
47
100
AcDbScale
 70
     0
300
4:1
140
4.0
141
1.0
290
     0
  0
SCALE
  5
56
102
{ACAD_REACTORS
330
47
102
}
330
47
100
AcDbScale
 70
     0
300
8:1
140
8.0
141
1.0
290
     0
  0
SCALE
  5
57
102
{ACAD_REACTORS
330
47
102
}
330
47
100
AcDbScale
 70
     0
300
10:1
140
10.0
141
1.0
290
     0
  0
SCALE
  5
58
102
{ACAD_REACTORS
330
47
102
}
330
47
100
AcDbScale
 70
     0
300
100:1
140
100.0
141
1.0
290
     0
  0
SCALE
  5
59
102
{ACAD_REACTORS
330
47
102
}
330
47
100
AcDbScale
 70
     0
300
1/128" = 1'-0"
140
0.0078125
141
12.0
290
     0
  0
SCALE
  5
5A
102
{ACAD_REACTORS
330
47
102
}
330
47
100
AcDbScale
 70
     0
300
1/64" = 1'-0"
140
0.015625
141
12.0
290
     0
  0
SCALE
  5
5B
102
{ACAD_REACTORS
330
47
102
}
330
47
100
AcDbScale
 70
     0
300
1/32" = 1'-0"
140
0.03125
141
12.0
290
     0
  0
SCALE
  5
5C
102
{ACAD_REACTORS
330
47
102
}
330
47
100
AcDbScale
 70
     0
300
1/16" = 1'-0"
140
0.0625
141
12.0
290
     0
  0
SCALE
  5
5D
102
{ACAD_REACTORS
330
47
102
}
330
47
100
AcDbScale
 70
     0
300
3/32" = 1'-0"
140
0.09375
141
12.0
290
     0
  0
SCALE
  5
5E
102
{ACAD_REACTORS
330
47
102
}
330
47
100
AcDbScale
 70
     0
300
1/8" = 1'-0"
140
0.125
141
12.0
290
     0
  0
SCALE
  5
5F
102
{ACAD_REACTORS
330
47
102
}
330
47
100
AcDbScale
 70
     0
300
3/16" = 1'-0"
140
0.1875
141
12.0
290
     0
  0
SCALE
  5
60
102
{ACAD_REACTORS
330
47
102
}
330
47
100
AcDbScale
 70
     0
300
1/4" = 1'-0"
140
0.25
141
12.0
290
     0
  0
SCALE
  5
61
102
{ACAD_REACTORS
330
47
102
}
330
47
100
AcDbScale
 70
     0
300
3/8" = 1'-0"
140
0.375
141
12.0
290
     0
  0
SCALE
  5
62
102
{ACAD_REACTORS
330
47
102
}
330
47
100
AcDbScale
 70
     0
300
1/2" = 1'-0"
140
0.5
141
12.0
290
     0
  0
SCALE
  5
63
102
{ACAD_REACTORS
330
47
102
}
330
47
100
AcDbScale
 70
     0
300
3/4" = 1'-0"
140
0.75
141
12.0
290
     0
  0
SCALE
  5
64
102
{ACAD_REACTORS
330
47
102
}
330
47
100
AcDbScale
 70
     0
300
1" = 1'-0"
140
1.0
141
12.0
290
     0
  0
SCALE
  5
65
102
{ACAD_REACTORS
330
47
102
}
330
47
100
AcDbScale
 70
     0
300
1-1/2" = 1'-0"
140
1.5
141
12.0
290
     0
  0
SCALE
  5
66
102
{ACAD_REACTORS
330
47
102
}
330
47
100
AcDbScale
 70
     0
300
3" = 1'-0"
140
3.0
141
12.0
290
     0
  0
SCALE
  5
67
102
{ACAD_REACTORS
330
47
102
}
330
47
100
AcDbScale
 70
     0
300
6" = 1'-0"
140
6.0
141
12.0
290
     0
  0
SCALE
  5
68
102
{ACAD_REACTORS
330
47
102
}
330
47
100
AcDbScale
 70
     0
300
1'-0" = 1'-0"
140
12.0
141
12.0
290
     0
  0
ENDSEC
  0
EOF
